ISO-10303-21;
HEADER;
FILE_DESCRIPTION (( 'STEP AP214' ),
    '1' );
FILE_NAME ('RINDLS63-30T.STEP',
    '2019-03-07T04:09:56',
    ( '' ),
    ( '' ),
    'SwSTEP 2.0',
    'SolidWorks 2018',
    '' );
FILE_SCHEMA (( 'AUTOMOTIVE_DESIGN' ));
ENDSEC;

DATA;
#1 = SURFACE_STYLE_USAGE ( .BOTH. , #25 ) ;
#2 = ORIENTED_EDGE ( 'NONE', *, *, #198, .T. ) ;
#3 = CARTESIAN_POINT ( 'NONE',  ( 36.70000000000000284, 0.0000000000000000000, 40.70000000000000284 ) ) ;
#4 = PLANE ( 'NONE',  #291 ) ;
#5 = VERTEX_POINT ( 'NONE', #152 ) ;
#6 = ORIENTED_EDGE ( 'NONE', *, *, #153, .F. ) ;
#7 = VERTEX_POINT ( 'NONE', #72 ) ;
#8 = SURFACE_STYLE_USAGE ( .BOTH. , #120 ) ;
#9 =( NAMED_UNIT ( * ) SI_UNIT ( $, .STERADIAN. ) SOLID_ANGLE_UNIT ( ) );
#10 = LINE ( 'NONE', #49, #133 ) ;
#11 = FACE_OUTER_BOUND ( 'NONE', #14, .T. ) ;
#12 = CARTESIAN_POINT ( 'NONE',  ( 36.70000000000000284, 35.79999999999999716, 0.0000000000000000000 ) ) ;
#13 = LINE ( 'NONE', #212, #282 ) ;
#14 = EDGE_LOOP ( 'NONE', ( #102, #283 ) ) ;
#15 = AXIS2_PLACEMENT_3D ( 'NONE', #358, #185, #154 ) ;
#16 = CARTESIAN_POINT ( 'NONE',  ( 0.0000000000000000000, 35.79999999999999716, 40.70000000000000284 ) ) ;
#17 = ORIENTED_EDGE ( 'NONE', *, *, #89, .F. ) ;
#18 = DIRECTION ( 'NONE',  ( -0.0000000000000000000, 1.000000000000000000, -0.0000000000000000000 ) ) ;
#19 = DIRECTION ( 'NONE',  ( 0.0000000000000000000, 0.0000000000000000000, 1.000000000000000000 ) ) ;
#20 = DIRECTION ( 'NONE',  ( -0.0000000000000000000, 1.000000000000000000, -0.0000000000000000000 ) ) ;
#21 = ORIENTED_EDGE ( 'NONE', *, *, #41, .T. ) ;
#22 = EDGE_LOOP ( 'NONE', ( #268, #184, #148, #21 ) ) ;
#23 = CARTESIAN_POINT ( 'NONE',  ( 18.35000000000000142, -5.299999999999999822, 10.99999999999999822 ) ) ;
#24 = DIRECTION ( 'NONE',  ( 0.0000000000000000000, 0.0000000000000000000, 1.000000000000000000 ) ) ;
#25 = SURFACE_SIDE_STYLE ('',( #274 ) ) ;
#26 = VECTOR ( 'NONE', #331, 1000.000000000000000 ) ;
#27 = EDGE_CURVE ( 'NONE', #121, #313, #134, .T. ) ;
#28 = ORIENTED_EDGE ( 'NONE', *, *, #125, .T. ) ;
#29 =( NAMED_UNIT ( * ) PLANE_ANGLE_UNIT ( ) SI_UNIT ( $, .RADIAN. ) );
#30 = AXIS2_PLACEMENT_3D ( 'NONE', #36, #248, #227 ) ;
#31 = VECTOR ( 'NONE', #238, 1000.000000000000000 ) ;
#32 = AXIS2_PLACEMENT_3D ( 'NONE', #16, #258, #261 ) ;
#33 = LINE ( 'NONE', #132, #149 ) ;
#34 = MECHANICAL_DESIGN_GEOMETRIC_PRESENTATION_REPRESENTATION (  '', ( #232 ), #56 ) ;
#35 = EDGE_CURVE ( 'NONE', #286, #5, #99, .T. ) ;
#36 = CARTESIAN_POINT ( 'NONE',  ( 0.0000000000000000000, 0.0000000000000000000, 40.70000000000000284 ) ) ;
#37 = EDGE_CURVE ( 'NONE', #5, #286, #236, .T. ) ;
#38 = LINE ( 'NONE', #273, #53 ) ;
#39 = CARTESIAN_POINT ( 'NONE',  ( 0.0000000000000000000, 35.79999999999999716, 0.0000000000000000000 ) ) ;
#40 = EDGE_LOOP ( 'NONE', ( #68, #64, #357, #280 ) ) ;
#41 = EDGE_CURVE ( 'NONE', #284, #186, #47, .T. ) ;
#42 = FACE_OUTER_BOUND ( 'NONE', #122, .T. ) ;
#43 = CARTESIAN_POINT ( 'NONE',  ( 18.35000000000000142, 0.0000000000000000000, 10.99999999999999822 ) ) ;
#44 = CARTESIAN_POINT ( 'NONE',  ( 21.34999999999999787, 0.0000000000000000000, 27.05000000000000071 ) ) ;
#45 = ADVANCED_FACE ( 'NONE', ( #322, #55, #110 ), #290, .F. ) ;
#46 = CARTESIAN_POINT ( 'NONE',  ( 21.34999999999999787, 0.0000000000000000000, 29.00000000000000000 ) ) ;
#47 = CIRCLE ( 'NONE', #324, 1.950000000000000400 ) ;
#48 = ORIENTED_EDGE ( 'NONE', *, *, #256, .F. ) ;
#49 = CARTESIAN_POINT ( 'NONE',  ( 0.0000000000000000000, 0.0000000000000000000, 0.0000000000000000000 ) ) ;
#50 = DIRECTION ( 'NONE',  ( -1.000000000000000000, 0.0000000000000000000, -0.0000000000000000000 ) ) ;
#51 = AXIS2_PLACEMENT_3D ( 'NONE', #127, #150, #70 ) ;
#52 = PLANE ( 'NONE',  #126 ) ;
#53 = VECTOR ( 'NONE', #162, 1000.000000000000000 ) ;
#54 = DIRECTION ( 'NONE',  ( 0.0000000000000000000, 0.0000000000000000000, -1.000000000000000000 ) ) ;
#55 = FACE_BOUND ( 'NONE', #91, .T. ) ;
#56 =( GEOMETRIC_REPRESENTATION_CONTEXT ( 3 ) GLOBAL_UNCERTAINTY_ASSIGNED_CONTEXT ( ( #82 ) ) GLOBAL_UNIT_ASSIGNED_CONTEXT ( ( #199, #29, #219 ) ) REPRESENTATION_CONTEXT ( 'NONE', 'WORKASPACE' ) );
#57 = EDGE_LOOP ( 'NONE', ( #119, #270, #79, #88 ) ) ;
#58 = DIRECTION ( 'NONE',  ( 0.0000000000000000000, 0.0000000000000000000, -1.000000000000000000 ) ) ;
#59 = AXIS2_PLACEMENT_3D ( 'NONE', #225, #345, #251 ) ;
#60 = CIRCLE ( 'NONE', #15, 1.949999999999998623 ) ;
#61 = VECTOR ( 'NONE', #288, 1000.000000000000000 ) ;
#62 = EDGE_CURVE ( 'NONE', #73, #210, #311, .T. ) ;
#63 = CARTESIAN_POINT ( 'NONE',  ( 0.0000000000000000000, 0.0000000000000000000, 0.0000000000000000000 ) ) ;
#64 = ORIENTED_EDGE ( 'NONE', *, *, #27, .F. ) ;
#65 = DIRECTION ( 'NONE',  ( 1.000000000000000000, 0.0000000000000000000, 0.0000000000000000000 ) ) ;
#66 = VECTOR ( 'NONE', #326, 1000.000000000000000 ) ;
#67 = ORIENTED_EDGE ( 'NONE', *, *, #27, .T. ) ;
#68 = ORIENTED_EDGE ( 'NONE', *, *, #256, .T. ) ;
#69 = UNCERTAINTY_MEASURE_WITH_UNIT (LENGTH_MEASURE( 1.000000000000000082E-05 ), #242, 'distance_accuracy_value', 'NONE');
#70 = DIRECTION ( 'NONE',  ( 0.0000000000000000000, -0.0000000000000000000, -1.000000000000000000 ) ) ;
#71 = FACE_OUTER_BOUND ( 'NONE', #187, .T. ) ;
#72 = CARTESIAN_POINT ( 'NONE',  ( 18.35000000000000142, -5.299999999999999822, 12.94999999999999574 ) ) ;
#73 = VERTEX_POINT ( 'NONE', #12 ) ;
#74 = ADVANCED_FACE ( 'NONE', ( #11 ), #172, .T. ) ;
#75 = PRESENTATION_STYLE_ASSIGNMENT (( #1 ) ) ;
#76 = LINE ( 'NONE', #156, #66 ) ;
#77 = DIRECTION ( 'NONE',  ( 1.000000000000000000, 0.0000000000000000000, 0.0000000000000000000 ) ) ;
#78 = ORIENTED_EDGE ( 'NONE', *, *, #196, .T. ) ;
#79 = ORIENTED_EDGE ( 'NONE', *, *, #125, .F. ) ;
#80 = DIRECTION ( 'NONE',  ( -0.0000000000000000000, -1.000000000000000000, -0.0000000000000000000 ) ) ;
#81 = CARTESIAN_POINT ( 'NONE',  ( 18.35000000000000142, -5.299999999999999822, 9.049999999999998934 ) ) ;
#82 = UNCERTAINTY_MEASURE_WITH_UNIT (LENGTH_MEASURE( 1.000000000000000082E-05 ), #199, 'distance_accuracy_value', 'NONE');
#83 = CARTESIAN_POINT ( 'NONE',  ( 21.34999999999999787, -5.299999999999999822, 29.00000000000000000 ) ) ;
#84 = FACE_OUTER_BOUND ( 'NONE', #40, .T. ) ;
#85 = CYLINDRICAL_SURFACE ( 'NONE', #321, 1.949999999999998623 ) ;
#86 = CARTESIAN_POINT ( 'NONE',  ( 0.0000000000000000000, 0.0000000000000000000, 0.0000000000000000000 ) ) ;
#87 = CARTESIAN_POINT ( 'NONE',  ( 21.34999999999999787, 0.0000000000000000000, 30.95000000000000284 ) ) ;
#88 = ORIENTED_EDGE ( 'NONE', *, *, #106, .T. ) ;
#89 = EDGE_CURVE ( 'NONE', #186, #284, #354, .T. ) ;
#90 = VECTOR ( 'NONE', #77, 1000.000000000000000 ) ;
#91 = EDGE_LOOP ( 'NONE', ( #314, #143 ) ) ;
#92 = ORIENTED_EDGE ( 'NONE', *, *, #153, .T. ) ;
#93 = CARTESIAN_POINT ( 'NONE',  ( 21.34999999999999787, -5.299999999999999822, 29.00000000000000000 ) ) ;
#94 = EDGE_CURVE ( 'NONE', #7, #306, #151, .T. ) ;
#95 = ADVANCED_FACE ( 'NONE', ( #155 ), #205, .T. ) ;
#96 = CARTESIAN_POINT ( 'NONE',  ( 18.35000000000000142, -5.299999999999999822, 12.94999999999999574 ) ) ;
#97 = LINE ( 'NONE', #194, #281 ) ;
#98 = ORIENTED_EDGE ( 'NONE', *, *, #35, .F. ) ;
#99 = CIRCLE ( 'NONE', #59, 1.950000000000000400 ) ;
#100 = CARTESIAN_POINT ( 'NONE',  ( 21.34999999999999787, -5.299999999999999822, 29.00000000000000000 ) ) ;
#101 = ORIENTED_EDGE ( 'NONE', *, *, #255, .T. ) ;
#102 = ORIENTED_EDGE ( 'NONE', *, *, #223, .T. ) ;
#103 = CARTESIAN_POINT ( 'NONE',  ( 21.34999999999999787, 0.0000000000000000000, 29.00000000000000000 ) ) ;
#104 = LINE ( 'NONE', #271, #31 ) ;
#105 = CARTESIAN_POINT ( 'NONE',  ( 0.0000000000000000000, 35.79999999999999716, 0.0000000000000000000 ) ) ;
#106 = EDGE_CURVE ( 'NONE', #335, #356, #13, .T. ) ;
#107 = ADVANCED_FACE ( 'NONE', ( #332 ), #85, .T. ) ;
#108 = DIRECTION ( 'NONE',  ( 0.0000000000000000000, 1.000000000000000000, 0.0000000000000000000 ) ) ;
#109 = SURFACE_STYLE_FILL_AREA ( #309 ) ;
#110 = FACE_OUTER_BOUND ( 'NONE', #130, .T. ) ;
#111 = PLANE ( 'NONE',  #333 ) ;
#112 = AXIS2_PLACEMENT_3D ( 'NONE', #293, #348, #206 ) ;
#113 = CARTESIAN_POINT ( 'NONE',  ( 36.70000000000000284, 0.0000000000000000000, 0.0000000000000000000 ) ) ;
#114 = DIRECTION ( 'NONE',  ( 0.0000000000000000000, -0.0000000000000000000, -1.000000000000000000 ) ) ;
#115 = DIRECTION ( 'NONE',  ( 0.0000000000000000000, 0.0000000000000000000, 1.000000000000000000 ) ) ;
#116 = AXIS2_PLACEMENT_3D ( 'NONE', #46, #233, #229 ) ;
#117 = PRODUCT_RELATED_PRODUCT_CATEGORY ( 'part', '', ( #351 ) ) ;
#118 = EDGE_CURVE ( 'NONE', #189, #319, #76, .T. ) ;
#119 = ORIENTED_EDGE ( 'NONE', *, *, #305, .T. ) ;
#120 = SURFACE_SIDE_STYLE ('',( #109 ) ) ;
#121 = VERTEX_POINT ( 'NONE', #209 ) ;
#122 = EDGE_LOOP ( 'NONE', ( #144, #137 ) ) ;
#123 = PRODUCT_CONTEXT ( 'NONE', #276, 'mechanical' ) ;
#124 = COLOUR_RGB ( '',0.7921568627450980005, 0.8196078431372548767, 0.9333333333333333481 ) ;
#125 = EDGE_CURVE ( 'NONE', #335, #235, #298, .T. ) ;
#126 = AXIS2_PLACEMENT_3D ( 'NONE', #217, #240, #278 ) ;
#127 = CARTESIAN_POINT ( 'NONE',  ( 18.35000000000000142, -5.299999999999999822, 10.99999999999999822 ) ) ;
#128 = DIRECTION ( 'NONE',  ( -0.0000000000000000000, 1.000000000000000000, -0.0000000000000000000 ) ) ;
#129 = DIRECTION ( 'NONE',  ( -1.000000000000000000, -0.0000000000000000000, -0.0000000000000000000 ) ) ;
#130 = EDGE_LOOP ( 'NONE', ( #92, #224, #249, #67 ) ) ;
#131 = EDGE_LOOP ( 'NONE', ( #170, #285, #262, #2 ) ) ;
#132 = CARTESIAN_POINT ( 'NONE',  ( 0.0000000000000000000, 0.0000000000000000000, 40.70000000000000284 ) ) ;
#133 = VECTOR ( 'NONE', #295, 1000.000000000000000 ) ;
#134 = LINE ( 'NONE', #202, #61 ) ;
#135 = EDGE_CURVE ( 'NONE', #319, #306, #362, .T. ) ;
#136 = EDGE_LOOP ( 'NONE', ( #174, #17 ) ) ;
#137 = ORIENTED_EDGE ( 'NONE', *, *, #35, .T. ) ;
#138 = FILL_AREA_STYLE_COLOUR ( '', #124 ) ;
#139 = COLOUR_RGB ( '',0.7921568627450980005, 0.8196078431372548767, 0.9333333333333333481 ) ;
#140 = AXIS2_PLACEMENT_3D ( 'NONE', #214, #307, #24 ) ;
#141 = ORIENTED_EDGE ( 'NONE', *, *, #118, .T. ) ;
#142 = APPLICATION_PROTOCOL_DEFINITION ( 'draft international standard', 'automotive_design', 1998, #276 ) ;
#143 = ORIENTED_EDGE ( 'NONE', *, *, #135, .F. ) ;
#144 = ORIENTED_EDGE ( 'NONE', *, *, #37, .T. ) ;
#145 = VECTOR ( 'NONE', #260, 1000.000000000000000 ) ;
#146 = EDGE_LOOP ( 'NONE', ( #98, #176, #300, #222 ) ) ;
#147 = ADVANCED_FACE ( 'NONE', ( #267 ), #179, .F. ) ;
#148 = ORIENTED_EDGE ( 'NONE', *, *, #289, .T. ) ;
#149 = VECTOR ( 'NONE', #80, 1000.000000000000000 ) ;
#150 = DIRECTION ( 'NONE',  ( 0.0000000000000000000, -1.000000000000000000, 0.0000000000000000000 ) ) ;
#151 = LINE ( 'NONE', #96, #247 ) ;
#152 = CARTESIAN_POINT ( 'NONE',  ( 21.34999999999999787, -5.299999999999999822, 30.95000000000000284 ) ) ;
#153 = EDGE_CURVE ( 'NONE', #313, #356, #10, .T. ) ;
#154 = DIRECTION ( 'NONE',  ( 0.0000000000000000000, 0.0000000000000000000, 1.000000000000000000 ) ) ;
#155 = FACE_OUTER_BOUND ( 'NONE', #146, .T. ) ;
#156 = CARTESIAN_POINT ( 'NONE',  ( 18.35000000000000142, -5.299999999999999822, 9.049999999999998934 ) ) ;
#157 = ADVANCED_FACE ( 'NONE', ( #71 ), #182, .F. ) ;
#158 = CARTESIAN_POINT ( 'NONE',  ( 18.35000000000000142, -5.299999999999999822, 10.99999999999999822 ) ) ;
#159 = CARTESIAN_POINT ( 'NONE',  ( 36.70000000000000284, 35.79999999999999716, 40.70000000000000284 ) ) ;
#160 = CARTESIAN_POINT ( 'NONE',  ( 18.35000000000000142, 0.0000000000000000000, 12.94999999999999574 ) ) ;
#161 = CARTESIAN_POINT ( 'NONE',  ( 18.35000000000000142, 0.0000000000000000000, 9.049999999999998934 ) ) ;
#162 = DIRECTION ( 'NONE',  ( 0.0000000000000000000, 1.000000000000000000, 0.0000000000000000000 ) ) ;
#163 = DIRECTION ( 'NONE',  ( -1.000000000000000000, 0.0000000000000000000, -0.0000000000000000000 ) ) ;
#164 = ADVANCED_BREP_SHAPE_REPRESENTATION ( 'RINDLS63-30T', ( #339, #344 ), #259 ) ;
#165 = PLANE ( 'NONE',  #264 ) ;
#166 = VECTOR ( 'NONE', #129, 1000.000000000000000 ) ;
#167 = PRESENTATION_STYLE_ASSIGNMENT (( #8 ) ) ;
#168 = PRESENTATION_LAYER_ASSIGNMENT (  '', '', ( #177 ) ) ;
#169 = FILL_AREA_STYLE_COLOUR ( '', #139 ) ;
#170 = ORIENTED_EDGE ( 'NONE', *, *, #118, .F. ) ;
#171 = PRODUCT_DEFINITION_CONTEXT ( 'detailed design', #245, 'design' ) ;
#172 = PLANE ( 'NONE',  #51 ) ;
#173 = EDGE_LOOP ( 'NONE', ( #48, #175, #294, #6 ) ) ;
#174 = ORIENTED_EDGE ( 'NONE', *, *, #41, .F. ) ;
#175 = ORIENTED_EDGE ( 'NONE', *, *, #62, .F. ) ;
#176 = ORIENTED_EDGE ( 'NONE', *, *, #241, .T. ) ;
#177 = STYLED_ITEM ( 'NONE', ( #75 ), #339 ) ;
#178 = VECTOR ( 'NONE', #301, 1000.000000000000000 ) ;
#179 = PLANE ( 'NONE',  #112 ) ;
#180 = DIRECTION ( 'NONE',  ( -0.0000000000000000000, -0.0000000000000000000, -1.000000000000000000 ) ) ;
#181 = ORIENTED_EDGE ( 'NONE', *, *, #330, .F. ) ;
#182 = PLANE ( 'NONE',  #32 ) ;
#183 = CYLINDRICAL_SURFACE ( 'NONE', #190, 1.950000000000000400 ) ;
#184 = ORIENTED_EDGE ( 'NONE', *, *, #37, .F. ) ;
#185 = DIRECTION ( 'NONE',  ( -0.0000000000000000000, -1.000000000000000000, -0.0000000000000000000 ) ) ;
#186 = VERTEX_POINT ( 'NONE', #44 ) ;
#187 = EDGE_LOOP ( 'NONE', ( #336, #244, #340, #78 ) ) ;
#188 = EDGE_CURVE ( 'NONE', #121, #335, #316, .T. ) ;
#189 = VERTEX_POINT ( 'NONE', #81 ) ;
#190 = AXIS2_PLACEMENT_3D ( 'NONE', #83, #263, #115 ) ;
#191 =( NAMED_UNIT ( * ) SI_UNIT ( $, .STERADIAN. ) SOLID_ANGLE_UNIT ( ) );
#192 =( LENGTH_UNIT ( ) NAMED_UNIT ( * ) SI_UNIT ( .MILLI., .METRE. ) );
#193 = FACE_OUTER_BOUND ( 'NONE', #131, .T. ) ;
#194 = CARTESIAN_POINT ( 'NONE',  ( 21.34999999999999787, -5.299999999999999822, 30.95000000000000284 ) ) ;
#195 = DIRECTION ( 'NONE',  ( 0.0000000000000000000, 0.0000000000000000000, -1.000000000000000000 ) ) ;
#196 = EDGE_CURVE ( 'NONE', #235, #73, #292, .T. ) ;
#197 = MECHANICAL_DESIGN_GEOMETRIC_PRESENTATION_REPRESENTATION (  '', ( #177 ), #221 ) ;
#198 = EDGE_CURVE ( 'NONE', #306, #319, #60, .T. ) ;
#199 =( LENGTH_UNIT ( ) NAMED_UNIT ( * ) SI_UNIT ( .MILLI., .METRE. ) );
#200 = LINE ( 'NONE', #334, #342 ) ;
#201 = VECTOR ( 'NONE', #108, 1000.000000000000000 ) ;
#202 = CARTESIAN_POINT ( 'NONE',  ( 0.0000000000000000000, 0.0000000000000000000, 40.70000000000000284 ) ) ;
#203 = EDGE_LOOP ( 'NONE', ( #181, #141, #317, #327 ) ) ;
#204 = DIRECTION ( 'NONE',  ( -0.0000000000000000000, -1.000000000000000000, -0.0000000000000000000 ) ) ;
#205 = CYLINDRICAL_SURFACE ( 'NONE', #279, 1.950000000000000400 ) ;
#206 = DIRECTION ( 'NONE',  ( 0.0000000000000000000, 0.0000000000000000000, 1.000000000000000000 ) ) ;
#207 = CARTESIAN_POINT ( 'NONE',  ( 36.70000000000000284, 35.79999999999999716, 40.70000000000000284 ) ) ;
#208 = EDGE_CURVE ( 'NONE', #277, #121, #33, .T. ) ;
#209 = CARTESIAN_POINT ( 'NONE',  ( 0.0000000000000000000, 0.0000000000000000000, 40.70000000000000284 ) ) ;
#210 = VERTEX_POINT ( 'NONE', #105 ) ;
#211 = DIRECTION ( 'NONE',  ( 0.0000000000000000000, 0.0000000000000000000, 1.000000000000000000 ) ) ;
#212 = CARTESIAN_POINT ( 'NONE',  ( 36.70000000000000284, 0.0000000000000000000, 40.70000000000000284 ) ) ;
#213 = ORIENTED_EDGE ( 'NONE', *, *, #208, .T. ) ;
#214 = CARTESIAN_POINT ( 'NONE',  ( 18.35000000000000142, -5.299999999999999822, 10.99999999999999822 ) ) ;
#215 = ORIENTED_EDGE ( 'NONE', *, *, #188, .T. ) ;
#216 = CARTESIAN_POINT ( 'NONE',  ( 0.0000000000000000000, 0.0000000000000000000, 0.0000000000000000000 ) ) ;
#217 = CARTESIAN_POINT ( 'NONE',  ( 0.0000000000000000000, 0.0000000000000000000, 40.70000000000000284 ) ) ;
#218 = PRODUCT_DEFINITION_SHAPE ( 'NONE', 'NONE',  #302 ) ;
#219 =( NAMED_UNIT ( * ) SI_UNIT ( $, .STERADIAN. ) SOLID_ANGLE_UNIT ( ) );
#220 = AXIS2_PLACEMENT_3D ( 'NONE', #100, #228, #253 ) ;
#221 =( GEOMETRIC_REPRESENTATION_CONTEXT ( 3 ) GLOBAL_UNCERTAINTY_ASSIGNED_CONTEXT ( ( #312 ) ) GLOBAL_UNIT_ASSIGNED_CONTEXT ( ( #192, #360, #191 ) ) REPRESENTATION_CONTEXT ( 'NONE', 'WORKASPACE' ) );
#222 = ORIENTED_EDGE ( 'NONE', *, *, #289, .F. ) ;
#223 = EDGE_CURVE ( 'NONE', #7, #189, #266, .T. ) ;
#224 = ORIENTED_EDGE ( 'NONE', *, *, #106, .F. ) ;
#225 = CARTESIAN_POINT ( 'NONE',  ( 21.34999999999999787, -5.299999999999999822, 29.00000000000000000 ) ) ;
#226 = FACE_OUTER_BOUND ( 'NONE', #347, .T. ) ;
#227 = DIRECTION ( 'NONE',  ( 0.0000000000000000000, -0.0000000000000000000, 1.000000000000000000 ) ) ;
#228 = DIRECTION ( 'NONE',  ( 0.0000000000000000000, -1.000000000000000000, 0.0000000000000000000 ) ) ;
#229 = DIRECTION ( 'NONE',  ( 0.0000000000000000000, 0.0000000000000000000, 1.000000000000000000 ) ) ;
#230 = AXIS2_PLACEMENT_3D ( 'NONE', #325, #353, #54 ) ;
#231 = DIRECTION ( 'NONE',  ( -0.0000000000000000000, -1.000000000000000000, -0.0000000000000000000 ) ) ;
#232 = STYLED_ITEM ( 'NONE', ( #167 ), #164 ) ;
#233 = DIRECTION ( 'NONE',  ( -0.0000000000000000000, -1.000000000000000000, -0.0000000000000000000 ) ) ;
#234 = SHAPE_DEFINITION_REPRESENTATION ( #218, #164 ) ;
#235 = VERTEX_POINT ( 'NONE', #207 ) ;
#236 = CIRCLE ( 'NONE', #220, 1.950000000000000400 ) ;
#237 = DIRECTION ( 'NONE',  ( -0.0000000000000000000, -0.0000000000000000000, -1.000000000000000000 ) ) ;
#238 = DIRECTION ( 'NONE',  ( -1.000000000000000000, -0.0000000000000000000, -0.0000000000000000000 ) ) ;
#239 = CARTESIAN_POINT ( 'NONE',  ( 0.0000000000000000000, 35.79999999999999716, 40.70000000000000284 ) ) ;
#240 = DIRECTION ( 'NONE',  ( 1.000000000000000000, 0.0000000000000000000, 0.0000000000000000000 ) ) ;
#241 = EDGE_CURVE ( 'NONE', #286, #186, #246, .T. ) ;
#242 =( LENGTH_UNIT ( ) NAMED_UNIT ( * ) SI_UNIT ( .MILLI., .METRE. ) );
#243 = FACE_OUTER_BOUND ( 'NONE', #173, .T. ) ;
#244 = ORIENTED_EDGE ( 'NONE', *, *, #308, .F. ) ;
#245 = APPLICATION_CONTEXT ( 'automotive_design' ) ;
#246 = LINE ( 'NONE', #350, #178 ) ;
#247 = VECTOR ( 'NONE', #18, 1000.000000000000000 ) ;
#248 = DIRECTION ( 'NONE',  ( 0.0000000000000000000, 1.000000000000000000, 0.0000000000000000000 ) ) ;
#249 = ORIENTED_EDGE ( 'NONE', *, *, #188, .F. ) ;
#250 = ADVANCED_FACE ( 'NONE', ( #243 ), #4, .T. ) ;
#251 = DIRECTION ( 'NONE',  ( 0.0000000000000000000, 0.0000000000000000000, -1.000000000000000000 ) ) ;
#252 = CIRCLE ( 'NONE', #272, 1.949999999999998623 ) ;
#253 = DIRECTION ( 'NONE',  ( 0.0000000000000000000, 0.0000000000000000000, -1.000000000000000000 ) ) ;
#254 = CARTESIAN_POINT ( 'NONE',  ( 0.0000000000000000000, 0.0000000000000000000, 40.70000000000000284 ) ) ;
#255 = EDGE_CURVE ( 'NONE', #235, #277, #104, .T. ) ;
#256 = EDGE_CURVE ( 'NONE', #210, #313, #361, .T. ) ;
#257 = ADVANCED_FACE ( 'NONE', ( #315 ), #183, .T. ) ;
#258 = DIRECTION ( 'NONE',  ( 0.0000000000000000000, -1.000000000000000000, 0.0000000000000000000 ) ) ;
#259 =( GEOMETRIC_REPRESENTATION_CONTEXT ( 3 ) GLOBAL_UNCERTAINTY_ASSIGNED_CONTEXT ( ( #69 ) ) GLOBAL_UNIT_ASSIGNED_CONTEXT ( ( #242, #341, #9 ) ) REPRESENTATION_CONTEXT ( 'NONE', 'WORKASPACE' ) );
#260 = DIRECTION ( 'NONE',  ( -0.0000000000000000000, -0.0000000000000000000, -1.000000000000000000 ) ) ;
#261 = DIRECTION ( 'NONE',  ( 0.0000000000000000000, -0.0000000000000000000, -1.000000000000000000 ) ) ;
#262 = ORIENTED_EDGE ( 'NONE', *, *, #94, .T. ) ;
#263 = DIRECTION ( 'NONE',  ( -0.0000000000000000000, 1.000000000000000000, -0.0000000000000000000 ) ) ;
#264 = AXIS2_PLACEMENT_3D ( 'NONE', #329, #265, #114 ) ;
#265 = DIRECTION ( 'NONE',  ( 0.0000000000000000000, -1.000000000000000000, 0.0000000000000000000 ) ) ;
#266 = CIRCLE ( 'NONE', #230, 1.949999999999998623 ) ;
#267 = FACE_OUTER_BOUND ( 'NONE', #57, .T. ) ;
#268 = ORIENTED_EDGE ( 'NONE', *, *, #241, .F. ) ;
#269 = CARTESIAN_POINT ( 'NONE',  ( 0.0000000000000000000, 0.0000000000000000000, 40.70000000000000284 ) ) ;
#270 = ORIENTED_EDGE ( 'NONE', *, *, #196, .F. ) ;
#271 = CARTESIAN_POINT ( 'NONE',  ( 0.0000000000000000000, 35.79999999999999716, 40.70000000000000284 ) ) ;
#272 = AXIS2_PLACEMENT_3D ( 'NONE', #23, #299, #337 ) ;
#273 = CARTESIAN_POINT ( 'NONE',  ( 36.70000000000000284, 0.0000000000000000000, 0.0000000000000000000 ) ) ;
#274 = SURFACE_STYLE_FILL_AREA ( #328 ) ;
#275 = PRESENTATION_LAYER_ASSIGNMENT (  '', '', ( #232 ) ) ;
#276 = APPLICATION_CONTEXT ( 'automotive_design' ) ;
#277 = VERTEX_POINT ( 'NONE', #239 ) ;
#278 = DIRECTION ( 'NONE',  ( 0.0000000000000000000, 0.0000000000000000000, -1.000000000000000000 ) ) ;
#279 = AXIS2_PLACEMENT_3D ( 'NONE', #93, #128, #19 ) ;
#280 = ORIENTED_EDGE ( 'NONE', *, *, #308, .T. ) ;
#281 = VECTOR ( 'NONE', #304, 1000.000000000000000 ) ;
#282 = VECTOR ( 'NONE', #180, 1000.000000000000000 ) ;
#283 = ORIENTED_EDGE ( 'NONE', *, *, #330, .T. ) ;
#284 = VERTEX_POINT ( 'NONE', #87 ) ;
#285 = ORIENTED_EDGE ( 'NONE', *, *, #223, .F. ) ;
#286 = VERTEX_POINT ( 'NONE', #359 ) ;
#287 = CLOSED_SHELL ( 'NONE', ( #95, #107, #352, #45, #147, #157, #318, #250, #323, #74, #257, #349 ) ) ;
#288 = DIRECTION ( 'NONE',  ( -0.0000000000000000000, -0.0000000000000000000, -1.000000000000000000 ) ) ;
#289 = EDGE_CURVE ( 'NONE', #5, #284, #97, .T. ) ;
#290 = PLANE ( 'NONE',  #30 ) ;
#291 = AXIS2_PLACEMENT_3D ( 'NONE', #216, #58, #50 ) ;
#292 = LINE ( 'NONE', #159, #145 ) ;
#293 = CARTESIAN_POINT ( 'NONE',  ( 36.70000000000000284, 0.0000000000000000000, 40.70000000000000284 ) ) ;
#294 = ORIENTED_EDGE ( 'NONE', *, *, #305, .F. ) ;
#295 = DIRECTION ( 'NONE',  ( 1.000000000000000000, 0.0000000000000000000, 0.0000000000000000000 ) ) ;
#296 = CARTESIAN_POINT ( 'NONE',  ( 36.70000000000000284, 0.0000000000000000000, 40.70000000000000284 ) ) ;
#297 = AXIS2_PLACEMENT_3D ( 'NONE', #43, #231, #211 ) ;
#298 = LINE ( 'NONE', #296, #201 ) ;
#299 = DIRECTION ( 'NONE',  ( 0.0000000000000000000, -1.000000000000000000, 0.0000000000000000000 ) ) ;
#300 = ORIENTED_EDGE ( 'NONE', *, *, #89, .T. ) ;
#301 = DIRECTION ( 'NONE',  ( -0.0000000000000000000, 1.000000000000000000, -0.0000000000000000000 ) ) ;
#302 = PRODUCT_DEFINITION ( 'UNKNOWN', '', #343, #171 ) ;
#303 = CARTESIAN_POINT ( 'NONE',  ( 0.0000000000000000000, 0.0000000000000000000, 0.0000000000000000000 ) ) ;
#304 = DIRECTION ( 'NONE',  ( -0.0000000000000000000, 1.000000000000000000, -0.0000000000000000000 ) ) ;
#305 = EDGE_CURVE ( 'NONE', #356, #73, #38, .T. ) ;
#306 = VERTEX_POINT ( 'NONE', #160 ) ;
#307 = DIRECTION ( 'NONE',  ( -0.0000000000000000000, 1.000000000000000000, -0.0000000000000000000 ) ) ;
#308 = EDGE_CURVE ( 'NONE', #277, #210, #200, .T. ) ;
#309 = FILL_AREA_STYLE ('',( #169 ) ) ;
#310 = DIRECTION ( 'NONE',  ( 0.0000000000000000000, 0.0000000000000000000, 1.000000000000000000 ) ) ;
#311 = LINE ( 'NONE', #39, #166 ) ;
#312 = UNCERTAINTY_MEASURE_WITH_UNIT (LENGTH_MEASURE( 1.000000000000000082E-05 ), #192, 'distance_accuracy_value', 'NONE');
#313 = VERTEX_POINT ( 'NONE', #86 ) ;
#314 = ORIENTED_EDGE ( 'NONE', *, *, #198, .F. ) ;
#315 = FACE_OUTER_BOUND ( 'NONE', #22, .T. ) ;
#316 = LINE ( 'NONE', #254, #90 ) ;
#317 = ORIENTED_EDGE ( 'NONE', *, *, #135, .T. ) ;
#318 = ADVANCED_FACE ( 'NONE', ( #226 ), #111, .F. ) ;
#319 = VERTEX_POINT ( 'NONE', #161 ) ;
#320 = DIRECTION ( 'NONE',  ( 0.0000000000000000000, 0.0000000000000000000, 1.000000000000000000 ) ) ;
#321 = AXIS2_PLACEMENT_3D ( 'NONE', #158, #20, #355 ) ;
#322 = FACE_BOUND ( 'NONE', #136, .T. ) ;
#323 = ADVANCED_FACE ( 'NONE', ( #193 ), #346, .T. ) ;
#324 = AXIS2_PLACEMENT_3D ( 'NONE', #103, #204, #320 ) ;
#325 = CARTESIAN_POINT ( 'NONE',  ( 18.35000000000000142, -5.299999999999999822, 10.99999999999999822 ) ) ;
#326 = DIRECTION ( 'NONE',  ( -0.0000000000000000000, 1.000000000000000000, -0.0000000000000000000 ) ) ;
#327 = ORIENTED_EDGE ( 'NONE', *, *, #94, .F. ) ;
#328 = FILL_AREA_STYLE ('',( #138 ) ) ;
#329 = CARTESIAN_POINT ( 'NONE',  ( 21.34999999999999787, -5.299999999999999822, 29.00000000000000000 ) ) ;
#330 = EDGE_CURVE ( 'NONE', #189, #7, #252, .T. ) ;
#331 = DIRECTION ( 'NONE',  ( -0.0000000000000000000, -1.000000000000000000, -0.0000000000000000000 ) ) ;
#332 = FACE_OUTER_BOUND ( 'NONE', #203, .T. ) ;
#333 = AXIS2_PLACEMENT_3D ( 'NONE', #269, #195, #163 ) ;
#334 = CARTESIAN_POINT ( 'NONE',  ( 0.0000000000000000000, 35.79999999999999716, 40.70000000000000284 ) ) ;
#335 = VERTEX_POINT ( 'NONE', #3 ) ;
#336 = ORIENTED_EDGE ( 'NONE', *, *, #62, .T. ) ;
#337 = DIRECTION ( 'NONE',  ( 0.0000000000000000000, 0.0000000000000000000, -1.000000000000000000 ) ) ;
#338 = APPLICATION_PROTOCOL_DEFINITION ( 'draft international standard', 'automotive_design', 1998, #245 ) ;
#339 = MANIFOLD_SOLID_BREP ( 'Boss-Extrude3', #287 ) ;
#340 = ORIENTED_EDGE ( 'NONE', *, *, #255, .F. ) ;
#341 =( NAMED_UNIT ( * ) PLANE_ANGLE_UNIT ( ) SI_UNIT ( $, .RADIAN. ) );
#342 = VECTOR ( 'NONE', #237, 1000.000000000000000 ) ;
#343 = PRODUCT_DEFINITION_FORMATION_WITH_SPECIFIED_SOURCE ( 'ANY', '', #351, .NOT_KNOWN. ) ;
#344 = AXIS2_PLACEMENT_3D ( 'NONE', #63, #310, #65 ) ;
#345 = DIRECTION ( 'NONE',  ( 0.0000000000000000000, -1.000000000000000000, 0.0000000000000000000 ) ) ;
#346 = CYLINDRICAL_SURFACE ( 'NONE', #140, 1.949999999999998623 ) ;
#347 = EDGE_LOOP ( 'NONE', ( #213, #215, #28, #101 ) ) ;
#348 = DIRECTION ( 'NONE',  ( -1.000000000000000000, 0.0000000000000000000, 0.0000000000000000000 ) ) ;
#349 = ADVANCED_FACE ( 'NONE', ( #42 ), #165, .T. ) ;
#350 = CARTESIAN_POINT ( 'NONE',  ( 21.34999999999999787, -5.299999999999999822, 27.05000000000000071 ) ) ;
#351 = PRODUCT ( 'RINDLS63-30T', 'RINDLS63-30T', '', ( #123 ) ) ;
#352 = ADVANCED_FACE ( 'NONE', ( #84 ), #52, .F. ) ;
#353 = DIRECTION ( 'NONE',  ( 0.0000000000000000000, -1.000000000000000000, 0.0000000000000000000 ) ) ;
#354 = CIRCLE ( 'NONE', #116, 1.950000000000000400 ) ;
#355 = DIRECTION ( 'NONE',  ( 0.0000000000000000000, 0.0000000000000000000, 1.000000000000000000 ) ) ;
#356 = VERTEX_POINT ( 'NONE', #113 ) ;
#357 = ORIENTED_EDGE ( 'NONE', *, *, #208, .F. ) ;
#358 = CARTESIAN_POINT ( 'NONE',  ( 18.35000000000000142, 0.0000000000000000000, 10.99999999999999822 ) ) ;
#359 = CARTESIAN_POINT ( 'NONE',  ( 21.34999999999999787, -5.299999999999999822, 27.05000000000000071 ) ) ;
#360 =( NAMED_UNIT ( * ) PLANE_ANGLE_UNIT ( ) SI_UNIT ( $, .RADIAN. ) );
#361 = LINE ( 'NONE', #303, #26 ) ;
#362 = CIRCLE ( 'NONE', #297, 1.949999999999998623 ) ;
ENDSEC;
END-ISO-10303-21;
