ISO-10303-21;
HEADER;
FILE_DESCRIPTION (( 'STEP AP214' ),
    '1' );
FILE_NAME ('RINDLP36R-5.STEP',
    '2019-03-07T04:33:01',
    ( '' ),
    ( '' ),
    'SwSTEP 2.0',
    'SolidWorks 2018',
    '' );
FILE_SCHEMA (( 'AUTOMOTIVE_DESIGN' ));
ENDSEC;

DATA;
#1 = CARTESIAN_POINT ( 'NONE',  ( -12.97500000000000142, -4.700000000000000178, 23.50000000000000000 ) ) ;
#2 = CARTESIAN_POINT ( 'NONE',  ( -5.875000000000000888, -4.700000000000000178, 22.50000000000000000 ) ) ;
#3 = AXIS2_PLACEMENT_3D ( 'NONE', #73, #233, #93 ) ;
#4 = ORIENTED_EDGE ( 'NONE', *, *, #105, .F. ) ;
#5 = FACE_OUTER_BOUND ( 'NONE', #240, .T. ) ;
#6 = UNCERTAINTY_MEASURE_WITH_UNIT (LENGTH_MEASURE( 1.000000000000000082E-05 ), #148, 'distance_accuracy_value', 'NONE');
#7 = ADVANCED_FACE ( 'NONE', ( #291 ), #66, .T. ) ;
#8 = DIRECTION ( 'NONE',  ( 0.0000000000000000000, -0.0000000000000000000, -1.000000000000000000 ) ) ;
#9 = DIRECTION ( 'NONE',  ( 0.0000000000000000000, 0.0000000000000000000, -1.000000000000000000 ) ) ;
#10 = EDGE_CURVE ( 'NONE', #277, #15, #321, .T. ) ;
#11 = VECTOR ( 'NONE', #13, 1000.000000000000000 ) ;
#12 = ADVANCED_FACE ( 'NONE', ( #223 ), #63, .F. ) ;
#13 = DIRECTION ( 'NONE',  ( -1.000000000000000000, -0.0000000000000000000, -0.0000000000000000000 ) ) ;
#14 = CYLINDRICAL_SURFACE ( 'NONE', #49, 1.000000000000000888 ) ;
#15 = VERTEX_POINT ( 'NONE', #304 ) ;
#16 = DIRECTION ( 'NONE',  ( 0.0000000000000000000, -0.0000000000000000000, -1.000000000000000000 ) ) ;
#17 =( GEOMETRIC_REPRESENTATION_CONTEXT ( 3 ) GLOBAL_UNCERTAINTY_ASSIGNED_CONTEXT ( ( #247 ) ) GLOBAL_UNIT_ASSIGNED_CONTEXT ( ( #224, #166, #352 ) ) REPRESENTATION_CONTEXT ( 'NONE', 'WORKASPACE' ) );
#18 = DIRECTION ( 'NONE',  ( 1.000000000000000000, 0.0000000000000000000, 0.0000000000000000000 ) ) ;
#19 = LINE ( 'NONE', #241, #11 ) ;
#20 = ORIENTED_EDGE ( 'NONE', *, *, #51, .F. ) ;
#21 = APPLICATION_PROTOCOL_DEFINITION ( 'draft international standard', 'automotive_design', 1998, #112 ) ;
#22 = SURFACE_STYLE_FILL_AREA ( #122 ) ;
#23 = AXIS2_PLACEMENT_3D ( 'NONE', #147, #67, #331 ) ;
#24 = DIRECTION ( 'NONE',  ( 0.0000000000000000000, 0.0000000000000000000, 1.000000000000000000 ) ) ;
#25 = CIRCLE ( 'NONE', #347, 1.000000000000000888 ) ;
#26 = ORIENTED_EDGE ( 'NONE', *, *, #111, .T. ) ;
#27 = ORIENTED_EDGE ( 'NONE', *, *, #31, .T. ) ;
#28 = DIRECTION ( 'NONE',  ( 0.0000000000000000000, -1.000000000000000000, 0.0000000000000000000 ) ) ;
#29 = AXIS2_PLACEMENT_3D ( 'NONE', #1, #121, #24 ) ;
#30 = VERTEX_POINT ( 'NONE', #307 ) ;
#31 = EDGE_CURVE ( 'NONE', #210, #204, #351, .T. ) ;
#32 = DIRECTION ( 'NONE',  ( -0.0000000000000000000, 1.000000000000000000, -0.0000000000000000000 ) ) ;
#33 = ORIENTED_EDGE ( 'NONE', *, *, #126, .T. ) ;
#34 = CIRCLE ( 'NONE', #169, 1.000000000000000888 ) ;
#35 = VERTEX_POINT ( 'NONE', #174 ) ;
#36 = SURFACE_STYLE_USAGE ( .BOTH. , #311 ) ;
#37 = FACE_OUTER_BOUND ( 'NONE', #249, .T. ) ;
#38 = PRODUCT_RELATED_PRODUCT_CATEGORY ( 'part', '', ( #84 ) ) ;
#39 = DIRECTION ( 'NONE',  ( -0.0000000000000000000, 1.000000000000000000, -0.0000000000000000000 ) ) ;
#40 = AXIS2_PLACEMENT_3D ( 'NONE', #99, #48, #269 ) ;
#41 = VERTEX_POINT ( 'NONE', #254 ) ;
#42 = ORIENTED_EDGE ( 'NONE', *, *, #244, .T. ) ;
#43 = DIRECTION ( 'NONE',  ( -0.0000000000000000000, 1.000000000000000000, -0.0000000000000000000 ) ) ;
#44 = CARTESIAN_POINT ( 'NONE',  ( -26.95000000000000639, 0.0000000000000000000, 25.50000000000000000 ) ) ;
#45 = ORIENTED_EDGE ( 'NONE', *, *, #301, .F. ) ;
#46 = ADVANCED_FACE ( 'NONE', ( #37 ), #334, .F. ) ;
#47 = CARTESIAN_POINT ( 'NONE',  ( -12.97500000000000142, 0.0000000000000000000, 23.50000000000000000 ) ) ;
#48 = DIRECTION ( 'NONE',  ( -0.0000000000000000000, 1.000000000000000000, -0.0000000000000000000 ) ) ;
#49 = AXIS2_PLACEMENT_3D ( 'NONE', #235, #71, #69 ) ;
#50 = DIRECTION ( 'NONE',  ( -0.0000000000000000000, -1.000000000000000000, -0.0000000000000000000 ) ) ;
#51 = EDGE_CURVE ( 'NONE', #300, #35, #57, .T. ) ;
#52 = EDGE_LOOP ( 'NONE', ( #176, #226 ) ) ;
#53 = SURFACE_STYLE_USAGE ( .BOTH. , #108 ) ;
#54 = VERTEX_POINT ( 'NONE', #357 ) ;
#55 = DIRECTION ( 'NONE',  ( 0.0000000000000000000, 0.0000000000000000000, 1.000000000000000000 ) ) ;
#56 = VECTOR ( 'NONE', #205, 1000.000000000000000 ) ;
#57 = CIRCLE ( 'NONE', #316, 1.000000000000000888 ) ;
#58 = ORIENTED_EDGE ( 'NONE', *, *, #89, .F. ) ;
#59 = EDGE_CURVE ( 'NONE', #146, #41, #286, .T. ) ;
#60 = VECTOR ( 'NONE', #127, 1000.000000000000000 ) ;
#61 = ORIENTED_EDGE ( 'NONE', *, *, #111, .F. ) ;
#62 = LINE ( 'NONE', #44, #123 ) ;
#63 = PLANE ( 'NONE',  #154 ) ;
#64 = AXIS2_PLACEMENT_3D ( 'NONE', #218, #110, #18 ) ;
#65 = DIRECTION ( 'NONE',  ( -0.0000000000000000000, 0.0000000000000000000, 1.000000000000000000 ) ) ;
#66 = CYLINDRICAL_SURFACE ( 'NONE', #29, 1.000000000000000888 ) ;
#67 = DIRECTION ( 'NONE',  ( -1.000000000000000000, -1.602035075081118365E-16, 0.0000000000000000000 ) ) ;
#68 = CARTESIAN_POINT ( 'NONE',  ( -26.95000000000000639, 0.0000000000000000000, 0.0000000000000000000 ) ) ;
#69 = DIRECTION ( 'NONE',  ( 0.0000000000000000000, 0.0000000000000000000, 1.000000000000000000 ) ) ;
#70 = EDGE_CURVE ( 'NONE', #271, #85, #141, .T. ) ;
#71 = DIRECTION ( 'NONE',  ( -0.0000000000000000000, 1.000000000000000000, -0.0000000000000000000 ) ) ;
#72 = ORIENTED_EDGE ( 'NONE', *, *, #31, .F. ) ;
#73 = CARTESIAN_POINT ( 'NONE',  ( -26.95000000000000639, 0.0000000000000000000, 25.50000000000000000 ) ) ;
#74 = CARTESIAN_POINT ( 'NONE',  ( -12.97500000000000142, -4.700000000000000178, 23.50000000000000000 ) ) ;
#75 = AXIS2_PLACEMENT_3D ( 'NONE', #47, #50, #183 ) ;
#76 = ADVANCED_FACE ( 'NONE', ( #107 ), #232, .T. ) ;
#77 = DIRECTION ( 'NONE',  ( -0.0000000000000000000, 1.000000000000000000, -0.0000000000000000000 ) ) ;
#78 = DIRECTION ( 'NONE',  ( -0.0000000000000000000, 1.000000000000000000, -0.0000000000000000000 ) ) ;
#79 = EDGE_LOOP ( 'NONE', ( #326, #83, #58, #173 ) ) ;
#80 = FACE_OUTER_BOUND ( 'NONE', #79, .T. ) ;
#81 = DIRECTION ( 'NONE',  ( 0.0000000000000000000, 0.0000000000000000000, 1.000000000000000000 ) ) ;
#82 = AXIS2_PLACEMENT_3D ( 'NONE', #283, #177, #212 ) ;
#83 = ORIENTED_EDGE ( 'NONE', *, *, #244, .F. ) ;
#84 = PRODUCT ( 'RINDLP36R-5', 'RINDLP36R-5', '', ( #104 ) ) ;
#85 = VERTEX_POINT ( 'NONE', #171 ) ;
#86 = FILL_AREA_STYLE ('',( #163 ) ) ;
#87 = EDGE_CURVE ( 'NONE', #30, #231, #281, .T. ) ;
#88 = VERTEX_POINT ( 'NONE', #234 ) ;
#89 = EDGE_CURVE ( 'NONE', #30, #192, #190, .T. ) ;
#90 = CARTESIAN_POINT ( 'NONE',  ( -5.875000000000000888, 0.0000000000000000000, 23.50000000000000000 ) ) ;
#91 = ORIENTED_EDGE ( 'NONE', *, *, #70, .F. ) ;
#92 = EDGE_CURVE ( 'NONE', #204, #88, #213, .T. ) ;
#93 = DIRECTION ( 'NONE',  ( 0.0000000000000000000, -0.0000000000000000000, 1.000000000000000000 ) ) ;
#94 = CARTESIAN_POINT ( 'NONE',  ( -12.97500000000000142, 0.0000000000000000000, 23.50000000000000000 ) ) ;
#95 = DIRECTION ( 'NONE',  ( 0.0000000000000000000, -1.000000000000000000, 0.0000000000000000000 ) ) ;
#96 = CIRCLE ( 'NONE', #191, 1.000000000000000888 ) ;
#97 = DIRECTION ( 'NONE',  ( 1.000000000000000000, -1.387778780781445676E-16, 0.0000000000000000000 ) ) ;
#98 = COLOUR_RGB ( '',0.7921568627450980005, 0.8196078431372548767, 0.9333333333333333481 ) ;
#99 = CARTESIAN_POINT ( 'NONE',  ( -5.875000000000000888, -4.700000000000000178, 23.50000000000000000 ) ) ;
#100 = EDGE_LOOP ( 'NONE', ( #109, #27 ) ) ;
#101 = CIRCLE ( 'NONE', #75, 1.000000000000000888 ) ;
#102 = CARTESIAN_POINT ( 'NONE',  ( -5.875000000000000888, -4.700000000000000178, 23.50000000000000000 ) ) ;
#103 = STYLED_ITEM ( 'NONE', ( #308 ), #196 ) ;
#104 = PRODUCT_CONTEXT ( 'NONE', #138, 'mechanical' ) ;
#105 = EDGE_CURVE ( 'NONE', #15, #85, #203, .T. ) ;
#106 = LINE ( 'NONE', #68, #354 ) ;
#107 = FACE_OUTER_BOUND ( 'NONE', #100, .T. ) ;
#108 = SURFACE_SIDE_STYLE ('',( #199 ) ) ;
#109 = ORIENTED_EDGE ( 'NONE', *, *, #206, .T. ) ;
#110 = DIRECTION ( 'NONE',  ( -0.0000000000000000000, 0.0000000000000000000, 1.000000000000000000 ) ) ;
#111 = EDGE_CURVE ( 'NONE', #41, #35, #261, .T. ) ;
#112 = APPLICATION_CONTEXT ( 'automotive_design' ) ;
#113 =( GEOMETRIC_REPRESENTATION_CONTEXT ( 3 ) GLOBAL_UNCERTAINTY_ASSIGNED_CONTEXT ( ( #6 ) ) GLOBAL_UNIT_ASSIGNED_CONTEXT ( ( #148, #150, #339 ) ) REPRESENTATION_CONTEXT ( 'NONE', 'WORKASPACE' ) );
#114 = VECTOR ( 'NONE', #296, 1000.000000000000000 ) ;
#115 = DIRECTION ( 'NONE',  ( -1.602035075081118118E-16, 1.000000000000000000, -0.0000000000000000000 ) ) ;
#116 = VECTOR ( 'NONE', #211, 1000.000000000000000 ) ;
#117 = EDGE_LOOP ( 'NONE', ( #200, #45, #340, #42 ) ) ;
#118 = DIRECTION ( 'NONE',  ( 0.0000000000000000000, 0.0000000000000000000, 1.000000000000000000 ) ) ;
#119 = PRESENTATION_LAYER_ASSIGNMENT (  '', '', ( #161 ) ) ;
#120 = CARTESIAN_POINT ( 'NONE',  ( -4.005087687702795419E-15, 25.00000000000000000, 0.0000000000000000000 ) ) ;
#121 = DIRECTION ( 'NONE',  ( -0.0000000000000000000, 1.000000000000000000, -0.0000000000000000000 ) ) ;
#122 = FILL_AREA_STYLE ('',( #290 ) ) ;
#123 = VECTOR ( 'NONE', #341, 1000.000000000000000 ) ;
#124 = CARTESIAN_POINT ( 'NONE',  ( -12.97500000000000142, -4.700000000000000178, 22.50000000000000000 ) ) ;
#125 = ADVANCED_FACE ( 'NONE', ( #335 ), #312, .T. ) ;
#126 = EDGE_CURVE ( 'NONE', #146, #300, #348, .T. ) ;
#127 = DIRECTION ( 'NONE',  ( -0.0000000000000000000, -0.0000000000000000000, -1.000000000000000000 ) ) ;
#128 = ORIENTED_EDGE ( 'NONE', *, *, #303, .F. ) ;
#129 = LINE ( 'NONE', #294, #349 ) ;
#130 = COLOUR_RGB ( '',0.7921568627450980005, 0.8196078431372548767, 0.9333333333333333481 ) ;
#131 = DIRECTION ( 'NONE',  ( 0.0000000000000000000, 0.0000000000000000000, 1.000000000000000000 ) ) ;
#132 = VECTOR ( 'NONE', #32, 1000.000000000000000 ) ;
#133 = CARTESIAN_POINT ( 'NONE',  ( 0.0000000000000000000, 0.0000000000000000000, 25.50000000000000000 ) ) ;
#134 = AXIS2_PLACEMENT_3D ( 'NONE', #263, #95, #8 ) ;
#135 = DIRECTION ( 'NONE',  ( -1.387778780781445676E-16, -1.000000000000000000, 0.0000000000000000000 ) ) ;
#136 = CARTESIAN_POINT ( 'NONE',  ( -12.97500000000000142, -4.700000000000000178, 22.50000000000000000 ) ) ;
#137 = PLANE ( 'NONE',  #64 ) ;
#138 = APPLICATION_CONTEXT ( 'automotive_design' ) ;
#139 = CARTESIAN_POINT ( 'NONE',  ( 0.0000000000000000000, 0.0000000000000000000, 0.0000000000000000000 ) ) ;
#140 = VECTOR ( 'NONE', #39, 1000.000000000000000 ) ;
#141 = LINE ( 'NONE', #120, #279 ) ;
#142 = ORIENTED_EDGE ( 'NONE', *, *, #126, .F. ) ;
#143 = AXIS2_PLACEMENT_3D ( 'NONE', #172, #28, #229 ) ;
#144 = DIRECTION ( 'NONE',  ( 0.0000000000000000000, 0.0000000000000000000, -1.000000000000000000 ) ) ;
#145 = CARTESIAN_POINT ( 'NONE',  ( -12.97500000000000142, -4.700000000000000178, 23.50000000000000000 ) ) ;
#146 = VERTEX_POINT ( 'NONE', #288 ) ;
#147 = CARTESIAN_POINT ( 'NONE',  ( -4.005087687702795419E-15, 25.00000000000000000, 25.50000000000000000 ) ) ;
#148 =( LENGTH_UNIT ( ) NAMED_UNIT ( * ) SI_UNIT ( .MILLI., .METRE. ) );
#149 = AXIS2_PLACEMENT_3D ( 'NONE', #186, #97, #273 ) ;
#150 =( NAMED_UNIT ( * ) PLANE_ANGLE_UNIT ( ) SI_UNIT ( $, .RADIAN. ) );
#151 = CARTESIAN_POINT ( 'NONE',  ( -12.97500000000000142, -4.700000000000000178, 24.50000000000000000 ) ) ;
#152 = ORIENTED_EDGE ( 'NONE', *, *, #310, .F. ) ;
#153 = CARTESIAN_POINT ( 'NONE',  ( -26.95000000000000284, 25.00000000000000000, 25.50000000000000000 ) ) ;
#154 = AXIS2_PLACEMENT_3D ( 'NONE', #305, #65, #359 ) ;
#155 = ORIENTED_EDGE ( 'NONE', *, *, #270, .F. ) ;
#156 = CARTESIAN_POINT ( 'NONE',  ( 0.0000000000000000000, 0.0000000000000000000, 0.0000000000000000000 ) ) ;
#157 = DIRECTION ( 'NONE',  ( -0.0000000000000000000, -1.000000000000000000, -0.0000000000000000000 ) ) ;
#158 = DIRECTION ( 'NONE',  ( 0.0000000000000000000, -1.000000000000000000, 0.0000000000000000000 ) ) ;
#159 = ADVANCED_FACE ( 'NONE', ( #252, #278, #236 ), #259, .F. ) ;
#160 = EDGE_LOOP ( 'NONE', ( #262, #306, #337, #268 ) ) ;
#161 = STYLED_ITEM ( 'NONE', ( #330 ), #323 ) ;
#162 = APPLICATION_PROTOCOL_DEFINITION ( 'draft international standard', 'automotive_design', 1998, #138 ) ;
#163 = FILL_AREA_STYLE_COLOUR ( '', #130 ) ;
#164 = ORIENTED_EDGE ( 'NONE', *, *, #10, .F. ) ;
#165 = FACE_OUTER_BOUND ( 'NONE', #284, .T. ) ;
#166 =( NAMED_UNIT ( * ) PLANE_ANGLE_UNIT ( ) SI_UNIT ( $, .RADIAN. ) );
#167 = SHAPE_DEFINITION_REPRESENTATION ( #350, #323 ) ;
#168 = AXIS2_PLACEMENT_3D ( 'NONE', #102, #238, #9 ) ;
#169 = AXIS2_PLACEMENT_3D ( 'NONE', #344, #157, #81 ) ;
#170 = EDGE_LOOP ( 'NONE', ( #255, #33, #332, #61 ) ) ;
#171 = CARTESIAN_POINT ( 'NONE',  ( -4.005087687702795419E-15, 25.00000000000000000, 0.0000000000000000000 ) ) ;
#172 = CARTESIAN_POINT ( 'NONE',  ( -5.875000000000000888, -4.700000000000000178, 23.50000000000000000 ) ) ;
#173 = ORIENTED_EDGE ( 'NONE', *, *, #87, .T. ) ;
#174 = CARTESIAN_POINT ( 'NONE',  ( -5.875000000000000888, 0.0000000000000000000, 24.50000000000000000 ) ) ;
#175 = DIRECTION ( 'NONE',  ( 1.000000000000000000, 0.0000000000000000000, 0.0000000000000000000 ) ) ;
#176 = ORIENTED_EDGE ( 'NONE', *, *, #282, .T. ) ;
#177 = DIRECTION ( 'NONE',  ( 0.0000000000000000000, -1.000000000000000000, 0.0000000000000000000 ) ) ;
#178 = MECHANICAL_DESIGN_GEOMETRIC_PRESENTATION_REPRESENTATION (  '', ( #161 ), #17 ) ;
#179 = FACE_OUTER_BOUND ( 'NONE', #248, .T. ) ;
#180 = CARTESIAN_POINT ( 'NONE',  ( -26.95000000000000284, 25.00000000000000000, 25.50000000000000000 ) ) ;
#181 = VECTOR ( 'NONE', #336, 1000.000000000000000 ) ;
#182 = CARTESIAN_POINT ( 'NONE',  ( -5.875000000000000888, -4.700000000000000178, 24.50000000000000000 ) ) ;
#183 = DIRECTION ( 'NONE',  ( 0.0000000000000000000, 0.0000000000000000000, 1.000000000000000000 ) ) ;
#184 =( GEOMETRIC_REPRESENTATION_CONTEXT ( 3 ) GLOBAL_UNCERTAINTY_ASSIGNED_CONTEXT ( ( #207 ) ) GLOBAL_UNIT_ASSIGNED_CONTEXT ( ( #222, #274, #246 ) ) REPRESENTATION_CONTEXT ( 'NONE', 'WORKASPACE' ) );
#185 = ADVANCED_FACE ( 'NONE', ( #179 ), #14, .T. ) ;
#186 = CARTESIAN_POINT ( 'NONE',  ( -26.95000000000000284, 25.00000000000000000, 25.50000000000000000 ) ) ;
#187 = EDGE_CURVE ( 'NONE', #298, #271, #106, .T. ) ;
#188 = CARTESIAN_POINT ( 'NONE',  ( -12.97500000000000142, -4.700000000000000178, 23.50000000000000000 ) ) ;
#189 = PRODUCT_DEFINITION_FORMATION_WITH_SPECIFIED_SOURCE ( 'ANY', '', #84, .NOT_KNOWN. ) ;
#190 = LINE ( 'NONE', #180, #116 ) ;
#191 = AXIS2_PLACEMENT_3D ( 'NONE', #188, #158, #319 ) ;
#192 = VERTEX_POINT ( 'NONE', #287 ) ;
#193 = EDGE_CURVE ( 'NONE', #88, #54, #25, .T. ) ;
#194 = ORIENTED_EDGE ( 'NONE', *, *, #301, .T. ) ;
#195 = LINE ( 'NONE', #216, #250 ) ;
#196 = MANIFOLD_SOLID_BREP ( 'Boss-Extrude2', #314 ) ;
#197 = ORIENTED_EDGE ( 'NONE', *, *, #310, .T. ) ;
#198 = CYLINDRICAL_SURFACE ( 'NONE', #285, 1.000000000000000888 ) ;
#199 = SURFACE_STYLE_FILL_AREA ( #86 ) ;
#200 = ORIENTED_EDGE ( 'NONE', *, *, #187, .T. ) ;
#201 = CARTESIAN_POINT ( 'NONE',  ( -4.005087687702795419E-15, 25.00000000000000000, 25.50000000000000000 ) ) ;
#202 = DIRECTION ( 'NONE',  ( -0.0000000000000000000, -1.000000000000000000, -0.0000000000000000000 ) ) ;
#203 = LINE ( 'NONE', #237, #56 ) ;
#204 = VERTEX_POINT ( 'NONE', #151 ) ;
#205 = DIRECTION ( 'NONE',  ( -0.0000000000000000000, -0.0000000000000000000, -1.000000000000000000 ) ) ;
#206 = EDGE_CURVE ( 'NONE', #204, #210, #96, .T. ) ;
#207 = UNCERTAINTY_MEASURE_WITH_UNIT (LENGTH_MEASURE( 1.000000000000000082E-05 ), #222, 'distance_accuracy_value', 'NONE');
#208 = ORIENTED_EDGE ( 'NONE', *, *, #328, .F. ) ;
#209 = LINE ( 'NONE', #136, #264 ) ;
#210 = VERTEX_POINT ( 'NONE', #124 ) ;
#211 = DIRECTION ( 'NONE',  ( -1.387778780781445676E-16, -1.000000000000000000, 0.0000000000000000000 ) ) ;
#212 = DIRECTION ( 'NONE',  ( 0.0000000000000000000, -0.0000000000000000000, -1.000000000000000000 ) ) ;
#213 = LINE ( 'NONE', #338, #140 ) ;
#214 = CARTESIAN_POINT ( 'NONE',  ( -5.875000000000000888, 0.0000000000000000000, 22.50000000000000000 ) ) ;
#215 = ADVANCED_FACE ( 'NONE', ( #165 ), #198, .T. ) ;
#216 = CARTESIAN_POINT ( 'NONE',  ( -26.95000000000000639, 0.0000000000000000000, 25.50000000000000000 ) ) ;
#217 = FACE_OUTER_BOUND ( 'NONE', #160, .T. ) ;
#218 = CARTESIAN_POINT ( 'NONE',  ( 0.0000000000000000000, 0.0000000000000000000, 25.50000000000000000 ) ) ;
#219 = ADVANCED_FACE ( 'NONE', ( #5 ), #315, .F. ) ;
#220 = CARTESIAN_POINT ( 'NONE',  ( -26.95000000000000639, 0.0000000000000000000, 0.0000000000000000000 ) ) ;
#221 = ORIENTED_EDGE ( 'NONE', *, *, #105, .T. ) ;
#222 =( LENGTH_UNIT ( ) NAMED_UNIT ( * ) SI_UNIT ( .MILLI., .METRE. ) );
#223 = FACE_OUTER_BOUND ( 'NONE', #242, .T. ) ;
#224 =( LENGTH_UNIT ( ) NAMED_UNIT ( * ) SI_UNIT ( .MILLI., .METRE. ) );
#225 = VECTOR ( 'NONE', #280, 1000.000000000000000 ) ;
#226 = ORIENTED_EDGE ( 'NONE', *, *, #59, .T. ) ;
#227 = EDGE_CURVE ( 'NONE', #85, #231, #19, .T. ) ;
#228 = ORIENTED_EDGE ( 'NONE', *, *, #227, .F. ) ;
#229 = DIRECTION ( 'NONE',  ( 0.0000000000000000000, 0.0000000000000000000, -1.000000000000000000 ) ) ;
#230 = LINE ( 'NONE', #325, #225 ) ;
#231 = VERTEX_POINT ( 'NONE', #295 ) ;
#232 = PLANE ( 'NONE',  #82 ) ;
#233 = DIRECTION ( 'NONE',  ( 0.0000000000000000000, 1.000000000000000000, 0.0000000000000000000 ) ) ;
#234 = CARTESIAN_POINT ( 'NONE',  ( -12.97500000000000142, 0.0000000000000000000, 24.50000000000000000 ) ) ;
#235 = CARTESIAN_POINT ( 'NONE',  ( -5.875000000000000888, -4.700000000000000178, 23.50000000000000000 ) ) ;
#236 = FACE_OUTER_BOUND ( 'NONE', #117, .T. ) ;
#237 = CARTESIAN_POINT ( 'NONE',  ( -4.005087687702795419E-15, 25.00000000000000000, 25.50000000000000000 ) ) ;
#238 = DIRECTION ( 'NONE',  ( 0.0000000000000000000, -1.000000000000000000, 0.0000000000000000000 ) ) ;
#239 = CARTESIAN_POINT ( 'NONE',  ( -26.95000000000000284, 25.00000000000000000, 25.50000000000000000 ) ) ;
#240 = EDGE_LOOP ( 'NONE', ( #313, #329, #258, #221 ) ) ;
#241 = CARTESIAN_POINT ( 'NONE',  ( -26.95000000000000284, 25.00000000000000000, 0.0000000000000000000 ) ) ;
#242 = EDGE_LOOP ( 'NONE', ( #128, #228, #91, #245 ) ) ;
#243 = CARTESIAN_POINT ( 'NONE',  ( 0.0000000000000000000, 0.0000000000000000000, 25.50000000000000000 ) ) ;
#244 = EDGE_CURVE ( 'NONE', #192, #298, #195, .T. ) ;
#245 = ORIENTED_EDGE ( 'NONE', *, *, #187, .F. ) ;
#246 =( NAMED_UNIT ( * ) SI_UNIT ( $, .STERADIAN. ) SOLID_ANGLE_UNIT ( ) );
#247 = UNCERTAINTY_MEASURE_WITH_UNIT (LENGTH_MEASURE( 1.000000000000000082E-05 ), #224, 'distance_accuracy_value', 'NONE');
#248 = EDGE_LOOP ( 'NONE', ( #142, #342, #26, #302 ) ) ;
#249 = EDGE_LOOP ( 'NONE', ( #362, #4, #164, #194 ) ) ;
#250 = VECTOR ( 'NONE', #345, 1000.000000000000000 ) ;
#251 = ORIENTED_EDGE ( 'NONE', *, *, #92, .T. ) ;
#252 = FACE_BOUND ( 'NONE', #320, .T. ) ;
#253 = ORIENTED_EDGE ( 'NONE', *, *, #193, .T. ) ;
#254 = CARTESIAN_POINT ( 'NONE',  ( -5.875000000000000888, -4.700000000000000178, 24.50000000000000000 ) ) ;
#255 = ORIENTED_EDGE ( 'NONE', *, *, #59, .F. ) ;
#256 = DIRECTION ( 'NONE',  ( 0.0000000000000000000, -1.000000000000000000, 0.0000000000000000000 ) ) ;
#257 = PRODUCT_DEFINITION_CONTEXT ( 'detailed design', #112, 'design' ) ;
#258 = ORIENTED_EDGE ( 'NONE', *, *, #353, .F. ) ;
#259 = PLANE ( 'NONE',  #3 ) ;
#260 = AXIS2_PLACEMENT_3D ( 'NONE', #145, #256, #144 ) ;
#261 = LINE ( 'NONE', #182, #132 ) ;
#262 = ORIENTED_EDGE ( 'NONE', *, *, #89, .T. ) ;
#263 = CARTESIAN_POINT ( 'NONE',  ( -5.875000000000000888, -4.700000000000000178, 23.50000000000000000 ) ) ;
#264 = VECTOR ( 'NONE', #77, 1000.000000000000000 ) ;
#265 = DIRECTION ( 'NONE',  ( 0.0000000000000000000, 0.0000000000000000000, 1.000000000000000000 ) ) ;
#266 = PRESENTATION_LAYER_ASSIGNMENT (  '', '', ( #103 ) ) ;
#267 = VECTOR ( 'NONE', #43, 1000.000000000000000 ) ;
#268 = ORIENTED_EDGE ( 'NONE', *, *, #353, .T. ) ;
#269 = DIRECTION ( 'NONE',  ( 0.0000000000000000000, 0.0000000000000000000, 1.000000000000000000 ) ) ;
#270 = EDGE_CURVE ( 'NONE', #54, #88, #101, .T. ) ;
#271 = VERTEX_POINT ( 'NONE', #156 ) ;
#272 = CIRCLE ( 'NONE', #168, 1.000000000000000888 ) ;
#273 = DIRECTION ( 'NONE',  ( 1.387778780781445676E-16, 1.000000000000000000, 0.0000000000000000000 ) ) ;
#274 =( NAMED_UNIT ( * ) PLANE_ANGLE_UNIT ( ) SI_UNIT ( $, .RADIAN. ) );
#275 = AXIS2_PLACEMENT_3D ( 'NONE', #139, #55, #322 ) ;
#276 = ORIENTED_EDGE ( 'NONE', *, *, #92, .F. ) ;
#277 = VERTEX_POINT ( 'NONE', #243 ) ;
#278 = FACE_BOUND ( 'NONE', #356, .T. ) ;
#279 = VECTOR ( 'NONE', #115, 1000.000000000000000 ) ;
#280 = DIRECTION ( 'NONE',  ( -1.000000000000000000, -0.0000000000000000000, -0.0000000000000000000 ) ) ;
#281 = LINE ( 'NONE', #153, #60 ) ;
#282 = EDGE_CURVE ( 'NONE', #41, #146, #272, .T. ) ;
#283 = CARTESIAN_POINT ( 'NONE',  ( -12.97500000000000142, -4.700000000000000178, 23.50000000000000000 ) ) ;
#284 = EDGE_LOOP ( 'NONE', ( #152, #293, #251, #253 ) ) ;
#285 = AXIS2_PLACEMENT_3D ( 'NONE', #74, #78, #265 ) ;
#286 = CIRCLE ( 'NONE', #143, 1.000000000000000888 ) ;
#287 = CARTESIAN_POINT ( 'NONE',  ( -26.95000000000000639, 0.0000000000000000000, 25.50000000000000000 ) ) ;
#288 = CARTESIAN_POINT ( 'NONE',  ( -5.875000000000000888, -4.700000000000000178, 22.50000000000000000 ) ) ;
#289 = PRODUCT_DEFINITION ( 'UNKNOWN', '', #189, #257 ) ;
#290 = FILL_AREA_STYLE_COLOUR ( '', #98 ) ;
#291 = FACE_OUTER_BOUND ( 'NONE', #324, .T. ) ;
#292 = ADVANCED_FACE ( 'NONE', ( #80 ), #346, .F. ) ;
#293 = ORIENTED_EDGE ( 'NONE', *, *, #206, .F. ) ;
#294 = CARTESIAN_POINT ( 'NONE',  ( -26.95000000000000284, 25.00000000000000000, 0.0000000000000000000 ) ) ;
#295 = CARTESIAN_POINT ( 'NONE',  ( -26.95000000000000284, 25.00000000000000000, 0.0000000000000000000 ) ) ;
#296 = DIRECTION ( 'NONE',  ( -0.0000000000000000000, -0.0000000000000000000, -1.000000000000000000 ) ) ;
#297 = EDGE_CURVE ( 'NONE', #192, #277, #62, .T. ) ;
#298 = VERTEX_POINT ( 'NONE', #220 ) ;
#299 = CYLINDRICAL_SURFACE ( 'NONE', #40, 1.000000000000000888 ) ;
#300 = VERTEX_POINT ( 'NONE', #214 ) ;
#301 = EDGE_CURVE ( 'NONE', #277, #271, #355, .T. ) ;
#302 = ORIENTED_EDGE ( 'NONE', *, *, #328, .T. ) ;
#303 = EDGE_CURVE ( 'NONE', #231, #298, #129, .T. ) ;
#304 = CARTESIAN_POINT ( 'NONE',  ( -4.005087687702795419E-15, 25.00000000000000000, 25.50000000000000000 ) ) ;
#305 = CARTESIAN_POINT ( 'NONE',  ( 0.0000000000000000000, 0.0000000000000000000, 0.0000000000000000000 ) ) ;
#306 = ORIENTED_EDGE ( 'NONE', *, *, #297, .T. ) ;
#307 = CARTESIAN_POINT ( 'NONE',  ( -26.95000000000000284, 25.00000000000000000, 25.50000000000000000 ) ) ;
#308 = PRESENTATION_STYLE_ASSIGNMENT (( #36 ) ) ;
#309 = DIRECTION ( 'NONE',  ( -0.0000000000000000000, -1.000000000000000000, -0.0000000000000000000 ) ) ;
#310 = EDGE_CURVE ( 'NONE', #210, #54, #209, .T. ) ;
#311 = SURFACE_SIDE_STYLE ('',( #22 ) ) ;
#312 = PLANE ( 'NONE',  #134 ) ;
#313 = ORIENTED_EDGE ( 'NONE', *, *, #227, .T. ) ;
#314 = CLOSED_SHELL ( 'NONE', ( #318, #7, #292, #159, #46, #219, #343, #12, #215, #76, #185, #125 ) ) ;
#315 = PLANE ( 'NONE',  #333 ) ;
#316 = AXIS2_PLACEMENT_3D ( 'NONE', #90, #202, #118 ) ;
#317 = DIRECTION ( 'NONE',  ( 0.0000000000000000000, -1.000000000000000000, 0.0000000000000000000 ) ) ;
#318 = ADVANCED_FACE ( 'NONE', ( #327 ), #299, .T. ) ;
#319 = DIRECTION ( 'NONE',  ( 0.0000000000000000000, 0.0000000000000000000, -1.000000000000000000 ) ) ;
#320 = EDGE_LOOP ( 'NONE', ( #208, #20 ) ) ;
#321 = LINE ( 'NONE', #201, #181 ) ;
#322 = DIRECTION ( 'NONE',  ( 1.000000000000000000, 0.0000000000000000000, 0.0000000000000000000 ) ) ;
#323 = ADVANCED_BREP_SHAPE_REPRESENTATION ( 'RINDLP36R-5', ( #196, #275 ), #184 ) ;
#324 = EDGE_LOOP ( 'NONE', ( #72, #197, #360, #276 ) ) ;
#325 = CARTESIAN_POINT ( 'NONE',  ( -26.95000000000000284, 25.00000000000000000, 25.50000000000000000 ) ) ;
#326 = ORIENTED_EDGE ( 'NONE', *, *, #303, .T. ) ;
#327 = FACE_OUTER_BOUND ( 'NONE', #170, .T. ) ;
#328 = EDGE_CURVE ( 'NONE', #35, #300, #34, .T. ) ;
#329 = ORIENTED_EDGE ( 'NONE', *, *, #87, .F. ) ;
#330 = PRESENTATION_STYLE_ASSIGNMENT (( #53 ) ) ;
#331 = DIRECTION ( 'NONE',  ( 1.602035075081118365E-16, -1.000000000000000000, 0.0000000000000000000 ) ) ;
#332 = ORIENTED_EDGE ( 'NONE', *, *, #51, .T. ) ;
#333 = AXIS2_PLACEMENT_3D ( 'NONE', #239, #317, #16 ) ;
#334 = PLANE ( 'NONE',  #23 ) ;
#335 = FACE_OUTER_BOUND ( 'NONE', #52, .T. ) ;
#336 = DIRECTION ( 'NONE',  ( -1.602035075081118118E-16, 1.000000000000000000, -0.0000000000000000000 ) ) ;
#337 = ORIENTED_EDGE ( 'NONE', *, *, #10, .T. ) ;
#338 = CARTESIAN_POINT ( 'NONE',  ( -12.97500000000000142, -4.700000000000000178, 24.50000000000000000 ) ) ;
#339 =( NAMED_UNIT ( * ) SI_UNIT ( $, .STERADIAN. ) SOLID_ANGLE_UNIT ( ) );
#340 = ORIENTED_EDGE ( 'NONE', *, *, #297, .F. ) ;
#341 = DIRECTION ( 'NONE',  ( 1.000000000000000000, 0.0000000000000000000, 0.0000000000000000000 ) ) ;
#342 = ORIENTED_EDGE ( 'NONE', *, *, #282, .F. ) ;
#343 = ADVANCED_FACE ( 'NONE', ( #217 ), #137, .T. ) ;
#344 = CARTESIAN_POINT ( 'NONE',  ( -5.875000000000000888, 0.0000000000000000000, 23.50000000000000000 ) ) ;
#345 = DIRECTION ( 'NONE',  ( -0.0000000000000000000, -0.0000000000000000000, -1.000000000000000000 ) ) ;
#346 = PLANE ( 'NONE',  #149 ) ;
#347 = AXIS2_PLACEMENT_3D ( 'NONE', #94, #309, #131 ) ;
#348 = LINE ( 'NONE', #2, #267 ) ;
#349 = VECTOR ( 'NONE', #135, 1000.000000000000000 ) ;
#350 = PRODUCT_DEFINITION_SHAPE ( 'NONE', 'NONE',  #289 ) ;
#351 = CIRCLE ( 'NONE', #260, 1.000000000000000888 ) ;
#352 =( NAMED_UNIT ( * ) SI_UNIT ( $, .STERADIAN. ) SOLID_ANGLE_UNIT ( ) );
#353 = EDGE_CURVE ( 'NONE', #15, #30, #230, .T. ) ;
#354 = VECTOR ( 'NONE', #175, 1000.000000000000000 ) ;
#355 = LINE ( 'NONE', #133, #114 ) ;
#356 = EDGE_LOOP ( 'NONE', ( #361, #155 ) ) ;
#357 = CARTESIAN_POINT ( 'NONE',  ( -12.97500000000000142, 0.0000000000000000000, 22.50000000000000000 ) ) ;
#358 = MECHANICAL_DESIGN_GEOMETRIC_PRESENTATION_REPRESENTATION (  '', ( #103 ), #113 ) ;
#359 = DIRECTION ( 'NONE',  ( 1.000000000000000000, 0.0000000000000000000, 0.0000000000000000000 ) ) ;
#360 = ORIENTED_EDGE ( 'NONE', *, *, #270, .T. ) ;
#361 = ORIENTED_EDGE ( 'NONE', *, *, #193, .F. ) ;
#362 = ORIENTED_EDGE ( 'NONE', *, *, #70, .T. ) ;
ENDSEC;
END-ISO-10303-21;
